999
PN 2D      DXF 1.1
  0
SECTION
  2
HEADER
  0
ENDSEC
  0
SECTION
  2
TABLES
  0
TABLE
  2
LTYPE
  0
LTYPE
  2
CONTINUOUS
 70
     0
  3
Solid line
 72
    65
 73
     0
 40
.00
  0
LTYPE
  2
DASHED_1
 70
     0
  3
Non-Solid line
 72
    65
 73
     2
 40
1.00
 49
.75
 49
-.25
  0
LTYPE
  2
DASHED_5
 70
     0
  3
Non-Solid line
 72
    65
 73
     2
 40
5.00
 49
3.50
 49
-1.50
  0
LTYPE
  2
DASHED_10
 70
     0
  3
Non-Solid line
 72
    65
 73
     2
 40
10.00
 49
7.50
 49
-2.50
  0
LTYPE
  2
DASHPOINT_1
 70
     0
  3
Non-Solid line
 72
    65
 73
     4
 40
1.00
 49
.70
 49
-.14
 49
.02
 49
-.14
  0
LTYPE
  2
DASHPOINT_5
 70
     0
  3
Non-Solid line
 72
    65
 73
     4
 40
5.00
 49
3.00
 49
-.95
 49
.10
 49
-.95
  0
LTYPE
  2
DASHPOINT_10
 70
     0
  3
Non-Solid line
 72
    65
 73
     4
 40
10.00
 49
7.00
 49
-1.40
 49
.20
 49
-1.40
  0
ENDTAB
  0
TABLE
  2
LAYER
 70
9
  0
LAYER
  2
1
 70
0
 62
1
  6
CONTINUOUS
  0
LAYER
  2
2
 70
0
 62
2
  6
CONTINUOUS
  0
LAYER
  2
3
 70
0
 62
3
  6
CONTINUOUS
  0
LAYER
  2
4
 70
0
 62
4
  6
CONTINUOUS
  0
LAYER
  2
5
 70
0
 62
5
  6
CONTINUOUS
  0
LAYER
  2
6
 70
0
 62
6
  6
CONTINUOUS
  0
LAYER
  2
7
 70
0
 62
7
  6
CONTINUOUS
  0
LAYER
  2
8
 70
0
 62
8
  6
CONTINUOUS
  0
ENDTAB
  0
ENDSEC
  0
SECTION
  2
ENTITIES
  0
LINE
  8
3
 10
297.56052
 20
53.85785
 11
297.20764
 21
48.21088
  0
LINE
  8
3
 10
244.79584
 20
54.91655
 11
244.79585
 21
35.85791
  0
LINE
  8
3
 10
236.44295
 20
57.26958
 11
236.44293
 21
50.79877
  0
LINE
  8
3
 10
283.23471
 20
70.52930
 11
273.29352
 21
70.52930
  0
LINE
  8
3
 10
261.99939
 20
70.52930
 11
252.11700
 21
70.52930
  0
LINE
  8
3
 10
261.99939
 20
85.41162
 11
252.99939
 21
99.17627
  0
LINE
  8
3
 10
252.11700
 20
70.52930
 11
261.99939
 21
85.41162
  0
LINE
  8
3
 10
210.05818
 20
99.17627
 11
218.41110
 21
99.17627
  0
LINE
  8
3
 10
225.88170
 20
99.17627
 11
234.23468
 21
99.17627
  0
LINE
  8
3
 10
241.70520
 20
99.17627
 11
250.11700
 21
99.17627
  0
LINE
  8
3
 10
243.76410
 20
70.52930
 11
235.05818
 21
70.52930
  0
LINE
  8
3
 10
225.05818
 20
70.52930
 11
216.41110
 21
70.52930
  0
LINE
  8
3
 10
250.11700
 20
99.17627
 11
243.76410
 21
70.52930
  0
LINE
  8
3
 10
216.41110
 20
70.52930
 11
210.05818
 21
99.17627
  0
LINE
  8
3
 10
177.11700
 20
99.17627
 11
186.35228
 21
99.17627
  0
LINE
  8
3
 10
199.11700
 20
99.17627
 11
208.11700
 21
99.17627
  0
LINE
  8
3
 10
197.47000
 20
70.52930
 11
187.88170
 21
70.52930
  0
LINE
  8
3
 10
187.88170
 20
70.52930
 11
177.11700
 21
99.17627
  0
LINE
  8
3
 10
208.11700
 20
99.17627
 11
197.47000
 21
70.52930
  0
LINE
  8
3
 10
124.70520
 20
92.11768
 11
124.70520
 21
70.52930
  0
ARC
  8
3
 10
461.15775
 20
138.44968
 40
26.37000
 50
271.63120
 51
273.80472
  0
LINE
  8
3
 10
413.98187
 20
141.14697
 11
422.21716
 21
141.14697
  0
LINE
  8
3
 10
376.04077
 20
141.14697
 11
387.68774
 21
141.14697
  0
LINE
  8
3
 10
395.39368
 20
112.50000
 11
388.86426
 21
112.50000
  0
LINE
  8
3
 10
372.09955
 20
119.55908
 11
372.09955
 21
112.50000
  0
LINE
  8
3
 10
316.15839
 20
141.14697
 11
324.98187
 21
141.14697
  0
LINE
  8
3
 10
334.21716
 20
141.14697
 11
346.51135
 21
141.14697
  0
LINE
  8
3
 10
346.51135
 20
112.50000
 11
335.57019
 21
112.50000
  0
LINE
  8
3
 10
67.45248
 20
141.14697
 11
58.51138
 21
141.14697
  0
LINE
  8
3
 10
71.33488
 20
135.32335
 11
68.95248
 21
135.32373
  0
ARC
  8
3
 10
71.41863
 20
131.00362
 40
12.39750
 50
276.14862
 51
282.76642
  0
ARC
  8
3
 10
460.12753
 20
54.28801
 40
4.29000
 50
184.97116
 51
228.15747
  0
ARC
  8
3
 10
459.58588
 20
54.02103
 40
3.73500
 50
231.61717
 51
278.66776
  0
ARC
  8
3
 10
459.81812
 20
53.54092
 40
3.23000
 50
275.87732
 51
320.91986
  0
ARC
  8
3
 10
459.07120
 20
54.34176
 40
4.31750
 50
318.91794
 51
357.48035
  0
ARC
  8
3
 10
457.35352
 20
54.99767
 40
6.09000
 50
-7.98279
 51
12.62239
  0
ARC
  8
3
 10
457.91849
 20
55.37735
 40
5.46000
 50
10.02948
 51
37.22990
  0
ARC
  8
3
 10
458.90320
 20
55.44916
 40
4.66500
 50
43.86025
 51
74.27379
  0
ARC
  8
3
 10
459.14227
 20
56.98232
 40
2.96750
 50
108.35887
 51
142.25479
  0
ARC
  8
3
 10
459.13474
 20
56.55463
 40
3.24250
 50
136.18387
 51
173.59045
  0
ARC
  8
3
 10
468.89117
 20
55.16133
 40
13.09500
 50
172.29778
 51
185.45520
  0
ARC
  8
3
 10
459.26663
 20
51.08008
 40
15.69500
 50
261.37683
 51
278.62204
  0
ARC
  8
3
 10
461.05661
 20
45.02877
 40
9.48250
 50
273.40265
 51
297.55502
  0
ARC
  8
3
 10
460.14352
 20
46.67613
 40
11.36500
 50
297.79422
 51
317.34491
  0
ARC
  8
3
 10
460.74948
 20
45.94818
 40
10.42750
 50
318.03064
 51
347.11166
  0
ARC
  8
3
 10
444.75970
 20
50.47466
 40
27.03750
 50
345.31876
 51
359.68979
  0
ARC
  8
3
 10
450.05362
 20
50.57888
 40
21.74250
 50
-.66037
 51
22.04484
  0
ARC
  8
3
 10
460.56097
 20
54.38490
 40
10.58500
 50
24.29728
 51
58.88048
  0
ARC
  8
3
 10
460.23657
 20
52.37318
 40
12.49750
 50
62.37611
 51
87.43497
  0
ARC
  8
3
 10
459.02567
 20
49.08896
 40
15.86750
 50
83.59488
 51
85.87360
  0
ARC
  8
3
 10
457.86148
 20
54.36537
 40
10.46500
 50
104.35565
 51
122.31516
  0
ARC
  8
3
 10
458.67325
 20
54.20944
 40
11.04750
 50
125.44217
 51
141.46281
  0
ARC
  8
3
 10
463.97806
 20
52.47497
 40
16.39500
 50
148.28784
 51
159.52248
  0
ARC
  8
3
 10
459.55347
 20
54.98585
 40
11.40000
 50
163.56841
 51
188.06255
  0
ARC
  8
3
 10
464.11945
 20
56.23970
 40
16.10750
 50
190.20107
 51
201.08145
  0
ARC
  8
3
 10
460.07257
 20
56.68583
 40
12.63250
 50
209.60368
 51
229.41415
  0
ARC
  8
3
 10
457.20328
 20
54.35302
 40
9.01750
 50
233.61998
 51
261.02060
  0
ARC
  8
3
 10
457.20755
 20
54.57229
 40
9.23500
 50
261.20676
 51
288.18726
  0
ARC
  8
3
 10
457.34125
 20
53.91900
 40
8.57250
 50
288.70111
 51
318.25037
  0
ARC
  8
3
 10
400.30316
 20
55.26119
 40
63.82499
 50
349.65396
 51
353.65771
  0
ARC
  8
3
 10
457.44653
 20
44.88172
 40
5.74750
 50
327.55322
 51
349.13718
  0
ARC
  8
3
 10
459.51013
 20
43.50743
 40
3.26750
 50
283.38077
 51
328.47549
  0
ARC
  8
3
 10
459.50320
 20
43.80468
 40
3.56000
 50
250.67332
 51
282.38184
  0
ARC
  8
3
 10
459.76242
 20
43.17631
 40
3.08500
 50
178.27177
 51
242.23906
  0
LINE
  8
3
 10
456.67828
 20
43.26937
 11
448.79584
 21
42.26958
  0
ARC
  8
3
 10
456.44470
 20
43.68162
 40
7.77750
 50
190.45944
 51
216.69060
  0
ARC
  8
3
 10
458.38074
 20
45.59180
 40
10.47750
 50
218.74127
 51
240.78639
  0
ARC
  8
3
 10
459.63083
 20
54.77335
 40
19.40000
 50
250.84993
 51
261.94879
  0
ARC
  8
3
 10
433.26733
 20
44.53658
 40
3.88250
 50
-15.86481
 51
15.24163
  0
ARC
  8
3
 10
433.08389
 20
44.12603
 40
3.97250
 50
307.50305
 51
350.56940
  0
ARC
  8
3
 10
432.51801
 20
45.50444
 40
5.42250
 50
284.76331
 51
303.37686
  0
ARC
  8
3
 10
433.47302
 20
43.77483
 40
3.54000
 50
226.39903
 51
252.36119
  0
ARC
  8
3
 10
433.48785
 20
44.14247
 40
3.82500
 50
185.15358
 51
230.03825
  0
ARC
  8
3
 10
442.80389
 20
44.18138
 40
13.13000
 50
172.14764
 51
181.66919
  0
ARC
  8
3
 10
433.82349
 20
44.98048
 40
4.14750
 50
130.14227
 51
166.12476
  0
ARC
  8
3
 10
433.08054
 20
44.98193
 40
3.94250
 50
52.10506
 51
78.00056
  0
ARC
  8
3
 10
433.06619
 20
44.92282
 40
3.99750
 50
9.13106
 51
52.46320
  0
ARC
  8
3
 10
430.08771
 20
42.19157
 40
9.76000
 50
111.55539
 51
128.79556
  0
ARC
  8
3
 10
427.42822
 20
45.57116
 40
5.46000
 50
129.26453
 51
155.92274
  0
ARC
  8
3
 10
431.03540
 20
44.12850
 40
9.34250
 50
156.87003
 51
185.63782
  0
ARC
  8
3
 10
430.43851
 20
44.12782
 40
8.75000
 50
186.01736
 51
208.33351
  0
ARC
  8
3
 10
428.83939
 20
42.78619
 40
6.71750
 50
204.73280
 51
241.93311
  0
ARC
  8
3
 10
430.79413
 20
46.21693
 40
10.66500
 50
241.33847
 51
267.16431
  0
ARC
  8
3
 10
433.29526
 20
61.29107
 40
25.90500
 50
263.28561
 51
268.01968
  0
ARC
  8
3
 10
434.62744
 20
51.19389
 40
15.72250
 50
276.19943
 51
291.47833
  0
ARC
  8
3
 10
436.64392
 20
44.36288
 40
8.65000
 50
295.62012
 51
319.96378
  0
ARC
  8
3
 10
435.59238
 20
44.57672
 40
9.60500
 50
323.02328
 51
347.54349
  0
ARC
  8
3
 10
437.97717
 20
44.09078
 40
7.17250
 50
-12.77521
 51
14.74700
  0
ARC
  8
3
 10
438.17517
 20
44.55227
 40
6.87500
 50
11.44593
 51
43.66215
  0
ARC
  8
3
 10
435.05017
 20
41.18303
 40
11.46500
 50
45.06091
 51
61.60954
  0
ARC
  8
3
 10
435.29871
 20
59.44782
 40
9.69250
 50
302.46417
 51
323.49338
  0
ARC
  8
3
 10
438.00446
 20
57.19530
 40
6.18250
 50
325.35547
 51
357.14139
  0
ARC
  8
3
 10
437.64185
 20
57.34139
 40
6.55250
 50
-3.97650
 51
31.84734
  0
ARC
  8
3
 10
436.40912
 20
56.39116
 40
8.10250
 50
32.95570
 51
73.30261
  0
ARC
  8
3
 10
432.59528
 20
41.42432
 40
23.54250
 50
74.87788
 51
86.82286
  0
ARC
  8
3
 10
430.94800
 20
55.77105
 40
8.95000
 50
107.04002
 51
143.04459
  0
ARC
  8
3
 10
429.41068
 20
57.28335
 40
6.81750
 50
145.43390
 51
190.55756
  0
ARC
  8
3
 10
429.16357
 20
57.10999
 40
6.54500
 50
189.46191
 51
219.17754
  0
ARC
  8
3
 10
431.01840
 20
60.21278
 40
10.02000
 50
226.24951
 51
243.20473
  0
ARC
  8
3
 10
433.32642
 20
56.97869
 40
3.26250
 50
146.08339
 51
172.80910
  0
ARC
  8
3
 10
433.72699
 20
56.82817
 40
3.68000
 50
171.26427
 51
212.37897
  0
ARC
  8
3
 10
432.87872
 20
56.39837
 40
2.73500
 50
214.29184
 51
259.91992
  0
ARC
  8
3
 10
433.44894
 20
56.96598
 40
3.38250
 50
277.66476
 51
303.69128
  0
ARC
  8
3
 10
433.59225
 20
56.59016
 40
2.99250
 50
305.40054
 51
324.61209
  0
ARC
  8
3
 10
433.21902
 20
56.73805
 40
3.38250
 50
326.23117
 51
351.03290
  0
ARC
  8
3
 10
432.81305
 20
56.76945
 40
3.79000
 50
-8.47928
 51
24.29260
  0
ARC
  8
3
 10
433.76715
 20
57.29924
 40
2.70250
 50
22.37665
 51
67.62886
  0
ARC
  8
3
 10
433.11313
 20
56.02729
 40
4.13000
 50
65.95419
 51
79.01468
  0
LINE
  8
3
 10
418.38406
 20
59.09287
 11
418.38403
 21
64.50488
  0
LINE
  8
3
 10
418.38403
 20
64.50488
 11
395.14886
 21
64.50488
  0
LINE
  8
3
 10
395.14886
 20
64.50488
 11
395.14886
 21
57.79883
  0
LINE
  8
3
 10
395.14886
 20
57.79883
 11
409.26648
 21
57.79891
  0
LINE
  8
3
 10
399.97232
 20
35.85754
 11
407.91357
 21
35.85755
  0
ARC
  8
3
 10
442.39987
 20
34.62505
 40
34.50750
 50
156.81592
 51
177.95319
  0
ARC
  8
3
 10
436.92734
 20
37.79300
 40
28.24000
 50
131.04224
 51
158.35327
  0
ARC
  8
3
 10
436.53873
 20
32.96347
 40
36.68000
 50
149.74353
 51
175.47473
  0
ARC
  8
3
 10
442.29025
 20
30.15754
 40
43.06500
 50
140.07019
 51
150.37460
  0
LINE
  8
3
 10
383.50174
 20
57.09299
 11
391.38403
 21
58.03430
  0
ARC
  8
3
 10
382.69412
 20
55.82118
 40
8.96750
 50
14.28817
 51
74.11304
  0
ARC
  8
3
 10
380.88004
 20
47.53613
 40
17.44000
 50
75.83200
 51
104.93918
  0
ARC
  8
3
 10
379.25037
 20
54.66502
 40
10.13500
 50
106.42715
 51
150.33716
  0
ARC
  8
3
 10
381.83801
 20
52.95739
 40
13.23000
 50
149.45702
 51
168.89912
  0
ARC
  8
3
 10
398.33038
 20
50.22795
 40
29.94500
 50
169.85019
 51
182.45386
  0
ARC
  8
3
 10
385.46704
 20
48.45656
 40
17.06000
 50
178.35641
 51
204.26384
  0
ARC
  8
3
 10
378.58688
 20
45.01464
 40
9.38000
 50
202.36633
 51
230.01828
  0
ARC
  8
3
 10
379.34598
 20
46.29988
 40
10.85500
 50
231.30728
 51
269.58002
  0
ARC
  8
3
 10
380.56479
 20
56.03348
 40
20.62750
 50
266.39136
 51
268.23148
  0
ARC
  8
3
 10
382.79587
 20
44.56349
 40
9.00500
 50
289.85513
 51
326.72580
  0
ARC
  8
3
 10
381.67047
 20
45.20056
 40
10.29750
 50
-32.80225
 51
13.60477
  0
ARC
  8
3
 10
382.68735
 20
45.90908
 40
9.15250
 50
10.79013
 51
43.51093
  0
ARC
  8
3
 10
382.90994
 20
46.10793
 40
8.85500
 50
43.56942
 51
81.18724
  0
ARC
  8
3
 10
382.76627
 20
46.84225
 40
8.15500
 50
79.39891
 51
124.48767
  0
ARC
  8
3
 10
387.24939
 20
41.28285
 40
15.28500
 50
126.53967
 51
134.99017
  0
ARC
  8
3
 10
401.46490
 20
51.22498
 40
25.03750
 50
169.40564
 51
178.01315
  0
ARC
  8
3
 10
384.46393
 20
54.69874
 40
7.69250
 50
153.81943
 51
171.55746
  0
ARC
  8
3
 10
381.18756
 20
56.18461
 40
4.09750
 50
119.83112
 51
152.25204
  0
ARC
  8
3
 10
380.91711
 20
55.61388
 40
4.49000
 50
93.82478
 51
113.19806
  0
ARC
  8
3
 10
380.61603
 20
57.52537
 40
2.56750
 50
46.47928
 51
90.00000
  0
ARC
  8
3
 10
379.08359
 20
56.35978
 40
4.47750
 50
9.42261
 51
42.52855
  0
ARC
  8
3
 10
383.99408
 20
45.21062
 40
7.37000
 50
160.89494
 51
186.87802
  0
ARC
  8
3
 10
381.11227
 20
44.56340
 40
4.44000
 50
183.03688
 51
239.43988
  0
ARC
  8
3
 10
380.67847
 20
44.06288
 40
3.79000
 50
241.23988
 51
258.58337
  0
ARC
  8
3
 10
380.33594
 20
44.69382
 40
4.47750
 50
284.12286
 51
305.15866
  0
ARC
  8
3
 10
380.40588
 20
44.05905
 40
3.93000
 50
309.65961
 51
349.28030
  0
ARC
  8
3
 10
376.55157
 20
44.98831
 40
7.89250
 50
-12.14377
 51
18.59448
  0
ARC
  8
3
 10
380.46564
 20
46.28676
 40
3.76750
 50
18.85902
 51
60.42505
  0
ARC
  8
3
 10
380.56058
 20
46.49707
 40
3.53750
 50
60.08127
 51
100.53699
  0
ARC
  8
3
 10
380.55002
 20
46.27053
 40
3.76000
 50
99.74731
 51
128.54326
  0
ARC
  8
3
 10
381.36359
 20
45.64310
 40
4.76250
 50
131.49605
 51
155.44592
  0
ARC
  8
3
 10
356.80347
 20
46.51205
 40
8.14500
 50
11.40610
 51
46.75743
  0
ARC
  8
3
 10
355.93146
 20
45.58643
 40
9.41750
 50
46.75079
 51
64.59055
  0
ARC
  8
3
 10
354.97070
 20
42.90484
 40
12.25500
 50
65.91287
 51
80.04190
  0
ARC
  8
3
 10
355.60483
 20
45.76465
 40
9.33000
 50
80.84047
 51
99.16180
  0
ARC
  8
3
 10
355.74301
 20
42.48533
 40
12.59500
 50
97.40686
 51
116.07108
  0
LINE
  8
3
 10
350.20764
 20
53.79887
 11
350.91357
 21
58.15186
  0
LINE
  8
3
 10
350.91357
 20
58.15186
 11
363.73706
 21
58.15186
  0
LINE
  8
3
 10
363.73706
 20
58.15186
 11
363.73706
 21
64.50488
  0
LINE
  8
3
 10
363.73706
 20
64.50488
 11
344.85468
 21
64.50488
  0
LINE
  8
3
 10
344.85468
 20
64.50488
 11
342.32526
 21
49.03418
  0
LINE
  8
3
 10
342.32526
 20
49.03418
 11
349.08994
 21
48.09285
  0
ARC
  8
3
 10
353.66943
 20
44.30415
 40
5.94250
 50
105.41147
 51
140.39841
  0
ARC
  8
3
 10
353.04614
 20
46.21092
 40
3.94000
 50
61.71509
 51
104.04239
  0
ARC
  8
3
 10
353.53113
 20
46.65176
 40
3.33000
 50
19.07656
 51
65.47189
  0
ARC
  8
3
 10
348.93304
 20
45.18124
 40
8.15750
 50
-18.28180
 51
18.28251
  0
ARC
  8
3
 10
353.13989
 20
43.90616
 40
3.76500
 50
280.94681
 51
340.05997
  0
ARC
  8
3
 10
353.23697
 20
44.31642
 40
4.15250
 50
237.90872
 51
278.55582
  0
ARC
  8
3
 10
353.73038
 20
44.28256
 40
4.40750
 50
181.69756
 51
232.23100
  0
LINE
  8
3
 10
349.32523
 20
44.15200
 11
341.26648
 21
43.26934
  0
ARC
  8
3
 10
350.21780
 20
44.91167
 40
9.10000
 50
190.39661
 51
239.21988
  0
ARC
  8
3
 10
352.33258
 20
49.89209
 40
14.48000
 50
242.11679
 51
271.48419
  0
ARC
  8
3
 10
353.52875
 20
51.31303
 40
15.91750
 50
267.04309
 51
293.18619
  0
ARC
  8
3
 10
355.55508
 20
44.84377
 40
9.19750
 50
297.45319
 51
339.10782
  0
ARC
  8
3
 10
355.17038
 20
45.74976
 40
9.90750
 50
-24.99771
 51
13.86069
  0
LINE
  8
3
 10
328.56055
 20
64.97559
 11
314.08997
 21
47.74023
  0
LINE
  8
3
 10
314.08997
 20
47.74023
 11
314.08997
 21
41.21045
  0
LINE
  8
3
 10
314.08997
 20
41.21045
 11
327.81055
 21
41.21045
  0
LINE
  8
3
 10
329.31055
 20
35.85791
 11
335.50177
 21
35.85791
  0
LINE
  8
3
 10
335.50177
 20
35.85791
 11
335.50177
 21
41.21045
  0
LINE
  8
3
 10
335.50177
 20
41.21045
 11
339.08997
 21
41.21045
  0
LINE
  8
3
 10
339.08997
 20
41.21045
 11
339.08997
 21
47.38721
  0
LINE
  8
3
 10
339.08997
 20
47.38721
 11
335.50177
 21
47.38721
  0
LINE
  8
3
 10
335.50177
 20
47.38721
 11
335.50177
 21
64.97559
  0
LINE
  8
3
 10
335.50177
 20
64.97559
 11
328.56055
 21
64.97559
  0
LINE
  8
3
 10
320.91357
 20
47.38721
 11
329.31055
 21
57.20504
  0
LINE
  8
3
 10
327.81055
 20
47.38721
 11
320.91357
 21
47.38721
  0
ARC
  8
3
 10
303.99692
 20
45.53279
 40
8.14750
 50
187.24689
 51
209.62428
  0
ARC
  8
3
 10
299.57889
 20
43.54932
 40
3.36000
 50
217.48956
 51
263.65521
  0
ARC
  8
3
 10
299.82562
 20
44.11283
 40
3.95000
 50
261.00098
 51
296.04959
  0
ARC
  8
3
 10
299.44226
 20
44.13242
 40
4.15000
 50
300.69083
 51
335.13156
  0
ARC
  8
3
 10
298.05038
 20
44.48854
 40
5.57000
 50
-22.16956
 51
.16751
  0
ARC
  8
3
 10
299.11786
 20
44.65916
 40
4.50500
 50
-1.96368
 51
40.15197
  0
ARC
  8
3
 10
300.44226
 20
37.76941
 40
10.93000
 50
93.39026
 51
107.21223
  0
ARC
  8
3
 10
299.83820
 20
44.80819
 40
3.87250
 50
45.34491
 51
90.62659
  0
ARC
  8
3
 10
298.55319
 20
58.55664
 40
4.80250
 50
258.07101
 51
291.65314
  0
ARC
  8
3
 10
298.73505
 20
57.41405
 40
3.68250
 50
295.58649
 51
337.99106
  0
ARC
  8
3
 10
299.10425
 20
57.08737
 40
3.22250
 50
-19.08160
 51
33.33396
  0
ARC
  8
3
 10
299.70709
 20
57.41624
 40
2.53750
 50
34.60979
 51
55.38158
  0
ARC
  8
3
 10
299.05807
 20
55.76478
 40
4.28500
 50
60.79323
 51
72.79788
  0
ARC
  8
3
 10
299.12701
 20
56.06448
 40
3.97750
 50
72.46977
 51
86.29564
  0
ARC
  8
3
 10
299.45731
 20
56.32811
 40
3.70750
 50
91.13261
 51
107.78168
  0
ARC
  8
3
 10
299.15793
 20
56.92406
 40
3.05000
 50
105.84474
 51
124.21808
  0
ARC
  8
3
 10
299.17627
 20
57.00714
 40
2.99250
 50
125.40327
 51
144.61191
  0
ARC
  8
3
 10
299.41370
 20
56.73963
 40
3.34250
 50
143.22984
 51
163.63446
  0
ARC
  8
3
 10
303.98938
 20
55.36028
 40
8.12000
 50
163.39313
 51
173.98882
  0
LINE
  8
3
 10
295.91354
 20
44.50491
 11
287.97235
 21
43.38693
  0
ARC
  8
3
 10
298.73492
 20
45.80617
 40
11.03000
 50
192.66853
 51
213.72818
  0
ARC
  8
3
 10
297.48795
 20
45.09133
 40
9.59750
 50
214.31247
 51
241.93359
  0
ARC
  8
3
 10
296.94254
 20
44.16990
 40
8.52750
 50
242.25435
 51
267.23529
  0
ARC
  8
3
 10
299.84521
 20
56.20850
 40
20.82250
 50
260.84192
 51
278.63745
  0
ARC
  8
3
 10
302.21283
 20
45.19821
 40
9.60500
 50
274.53488
 51
309.06558
  0
ARC
  8
3
 10
301.95474
 20
45.04736
 40
9.65500
 50
310.81897
 51
356.25363
  0
ARC
  8
3
 10
305.31903
 20
45.17235
 40
6.31750
 50
-6.87326
 51
47.09187
  0
ARC
  8
3
 10
304.70810
 20
44.57779
 40
7.16750
 50
46.75070
 51
79.36346
  0
ARC
  8
3
 10
302.96335
 20
58.30359
 40
7.35250
 50
294.66327
 51
337.12744
  0
ARC
  8
3
 10
304.03885
 20
57.65091
 40
6.11000
 50
-21.15311
 51
26.89432
  0
ARC
  8
3
 10
303.10986
 20
57.47075
 40
7.02500
 50
24.77685
 51
73.62799
  0
ARC
  8
3
 10
299.85999
 20
46.79297
 40
18.18500
 50
73.28670
 51
91.12875
  0
ARC
  8
3
 10
299.66885
 20
44.86186
 40
20.11500
 50
90.47603
 51
105.23268
  0
ARC
  8
3
 10
298.50916
 20
52.93039
 40
12.06500
 50
109.99127
 51
123.13576
  0
ARC
  8
3
 10
297.21619
 20
55.75821
 40
9.00250
 50
126.08388
 51
168.81331
  0
LINE
  8
3
 10
288.38403
 20
57.50489
 11
295.91357
 21
56.21067
  0
LINE
  8
3
 10
284.79584
 20
35.85791
 11
260.91354
 21
35.85794
  0
ARC
  8
3
 10
271.89658
 20
35.11378
 40
11.00750
 50
161.73593
 51
176.12384
  0
ARC
  8
3
 10
273.40793
 20
35.16011
 40
12.44000
 50
144.14723
 51
164.12085
  0
ARC
  8
3
 10
278.96933
 20
31.50248
 40
19.09250
 50
134.61407
 51
145.02579
  0
ARC
  8
3
 10
328.05377
 20
-23.69701
 40
92.93750
 50
126.32407
 51
132.25395
  0
ARC
  8
3
 10
261.93521
 20
65.77202
 40
18.31250
 50
307.17896
 51
316.18280
  0
ARC
  8
3
 10
270.55377
 20
57.45784
 40
6.33750
 50
316.47183
 51
339.80096
  0
ARC
  8
3
 10
271.69766
 20
56.61442
 40
4.99000
 50
344.36044
 51
356.71088
  0
ARC
  8
3
 10
273.45456
 20
56.21098
 40
3.22500
 50
2.08232
 51
36.99012
  0
ARC
  8
3
 10
273.63547
 20
56.45560
 40
2.93500
 50
35.30076
 51
66.71510
  0
ARC
  8
3
 10
272.91049
 20
54.41697
 40
5.09750
 50
68.28870
 51
86.65749
  0
ARC
  8
3
 10
273.30447
 20
54.85109
 40
4.65500
 50
91.19202
 51
105.87624
  0
ARC
  8
3
 10
273.00003
 20
56.21341
 40
3.26250
 50
107.27887
 51
135.37860
  0
ARC
  8
3
 10
273.23160
 20
55.95320
 40
3.61000
 50
135.02063
 51
165.48912
  0
ARC
  8
3
 10
278.30203
 20
54.47854
 40
8.89000
 50
164.47617
 51
175.27647
  0
LINE
  8
3
 10
269.44293
 20
55.21056
 11
261.50174
 21
55.79863
  0
ARC
  8
3
 10
273.16718
 20
55.04809
 40
11.69000
 50
158.83087
 51
176.31871
  0
ARC
  8
3
 10
270.93903
 20
56.03636
 40
9.25500
 50
147.31708
 51
159.55484
  0
ARC
  8
3
 10
268.47314
 20
57.59272
 40
6.34000
 50
130.86389
 51
147.12180
  0
ARC
  8
3
 10
269.49524
 20
56.90020
 40
7.54000
 50
111.46014
 51
133.29568
  0
ARC
  8
3
 10
270.94492
 20
54.12492
 40
10.65750
 50
101.63344
 51
113.25513
  0
ARC
  8
3
 10
272.01102
 20
50.56164
 40
14.36500
 50
92.26624
 51
102.93239
  0
ARC
  8
3
 10
273.03052
 20
43.50098
 40
21.47500
 50
85.75703
 51
94.23970
  0
ARC
  8
3
 10
273.77048
 20
46.21245
 40
18.72250
 50
75.36298
 51
87.40154
  0
ARC
  8
3
 10
276.37817
 20
56.19030
 40
8.41000
 50
54.46336
 51
75.37466
  0
ARC
  8
3
 10
274.85614
 20
54.62417
 40
10.57500
 50
37.31301
 51
52.68439
  0
ARC
  8
3
 10
276.18277
 20
56.44001
 40
8.44250
 50
13.74391
 51
32.96540
  0
ARC
  8
3
 10
277.79193
 20
56.66829
 40
6.82750
 50
-.38461
 51
15.09154
  0
ARC
  8
3
 10
273.87241
 20
57.03569
 40
10.75500
 50
340.83337
 51
357.79797
  0
ARC
  8
3
 10
273.60690
 20
57.64646
 40
11.21750
 50
313.89514
 51
338.33099
  0
ARC
  8
3
 10
253.34058
 20
79.77961
 40
41.22500
 50
308.34064
 51
312.86423
  0
ARC
  8
3
 10
338.85596
 20
-37.70979
 40
104.13750
 50
125.14233
 51
129.77341
  0
LINE
  8
3
 10
272.23383
 20
42.32806
 11
284.79584
 21
42.32813
  0
LINE
  8
3
 10
284.79584
 20
42.32813
 11
284.79584
 21
35.85791
  0
LINE
  8
3
 10
244.79585
 20
35.85791
 11
252.85464
 21
35.85791
  0
LINE
  8
3
 10
252.85464
 20
35.85791
 11
252.85464
 21
64.97559
  0
LINE
  8
3
 10
252.85464
 20
64.97559
 11
246.20767
 21
64.97521
  0
ARC
  8
3
 10
224.38281
 20
82.61986
 40
34.41250
 50
301.65646
 51
306.38443
  0
ARC
  8
3
 10
236.46980
 20
62.17895
 40
10.67750
 50
292.69775
 51
304.01456
  0
ARC
  8
3
 10
223.49257
 20
91.22906
 40
42.49250
 50
289.88113
 51
293.72614
  0
ARC
  8
3
 10
228.44585
 20
78.91984
 40
29.23500
 50
285.87473
 51
288.95596
  0
ARC
  8
3
 10
228.85339
 20
81.66994
 40
25.55250
 50
287.27792
 51
294.33701
  0
ARC
  8
3
 10
232.89357
 20
73.60896
 40
16.54750
 50
293.09320
 51
302.30469
  0
ARC
  8
3
 10
234.67152
 20
69.89837
 40
12.47000
 50
304.51181
 51
315.46335
  0
ARC
  8
3
 10
235.91443
 20
69.01923
 40
10.97000
 50
314.18326
 51
326.20203
  0
ARC
  8
3
 10
203.70578
 20
87.89964
 40
48.28999
 50
328.84515
 51
331.65872
  0
ARC
  8
3
 10
486.19489
 20
60.16441
 40
24.78500
 50
271.38947
 51
281.94650
  0
ARC
  8
3
 10
489.33624
 20
43.76428
 40
8.09500
 50
284.22229
 51
311.28888
  0
ARC
  8
3
 10
489.53378
 20
43.82889
 40
8.01500
 50
309.92310
 51
335.96078
  0
ARC
  8
3
 10
480.19864
 20
47.71917
 40
18.12750
 50
336.75070
 51
350.72934
  0
ARC
  8
3
 10
469.41736
 20
50.02719
 40
29.14500
 50
-10.33429
 51
.70754
  0
ARC
  8
3
 10
462.03235
 20
49.47697
 40
36.54000
 50
1.42728
 51
9.86947
  0
ARC
  8
3
 10
483.45444
 20
53.23405
 40
14.79000
 50
9.75465
 51
27.11556
  0
ARC
  8
3
 10
488.72479
 20
55.74022
 40
8.96000
 50
28.21210
 51
60.84026
  0
ARC
  8
3
 10
488.29178
 20
55.26952
 40
9.58250
 50
59.95052
 51
79.18373
  0
ARC
  8
3
 10
487.07608
 20
49.39256
 40
15.58250
 50
94.02246
 51
98.63301
  0
ARC
  8
3
 10
485.30017
 20
55.33305
 40
9.48250
 50
93.40477
 51
117.55444
  0
ARC
  8
3
 10
484.22443
 20
56.23402
 40
8.20500
 50
113.80171
 51
138.39609
  0
ARC
  8
3
 10
485.87024
 20
55.16359
 40
10.15000
 50
140.04675
 51
162.18117
  0
ARC
  8
3
 10
496.49081
 20
51.84556
 40
21.27500
 50
162.42659
 51
176.00436
  0
ARC
  8
3
 10
532.57666
 20
49.59774
 40
57.43250
 50
176.27583
 51
180.64709
  0
ARC
  8
3
 10
497.65234
 20
48.96015
 40
22.50250
 50
180.02808
 51
199.98152
  0
ARC
  8
3
 10
490.66046
 20
48.38840
 40
15.84500
 50
206.69310
 51
216.44431
  0
ARC
  8
3
 10
484.30267
 20
43.74366
 40
7.97250
 50
216.73468
 51
238.10129
  0
ARC
  8
3
 10
484.76712
 20
44.31536
 40
8.70250
 50
237.49426
 51
258.09940
  0
ARC
  8
3
 10
486.86182
 20
53.96291
 40
18.57500
 50
257.91370
 51
269.79657
  0
ARC
  8
3
 10
487.00388
 20
47.87970
 40
7.08000
 50
262.57813
 51
272.12079
  0
ARC
  8
3
 10
485.91418
 20
46.44423
 40
5.80000
 50
283.47867
 51
292.66522
  0
ARC
  8
3
 10
487.47131
 20
42.88801
 40
1.91750
 50
290.67899
 51
318.73700
  0
ARC
  8
3
 10
485.03275
 20
45.21637
 40
5.29000
 50
317.19943
 51
334.22742
  0
ARC
  8
3
 10
478.50519
 20
47.09254
 40
12.03750
 50
339.70273
 51
355.23694
  0
ARC
  8
3
 10
446.58179
 20
50.03403
 40
44.09750
 50
-5.12762
 51
5.12806
  0
ARC
  8
3
 10
480.46210
 20
53.68891
 40
10.04250
 50
1.63492
 51
23.42235
  0
ARC
  8
3
 10
486.08975
 20
55.79871
 40
4.05250
 50
27.68317
 51
50.29951
  0
ARC
  8
3
 10
486.85300
 20
56.93401
 40
2.69500
 50
47.36487
 51
76.48085
  0
ARC
  8
3
 10
486.49936
 20
57.02431
 40
2.58500
 50
117.00548
 51
149.71637
  0
ARC
  8
3
 10
491.74091
 20
54.14974
 40
8.56250
 50
150.79301
 51
162.80370
  0
ARC
  8
3
 10
502.97601
 20
52.34319
 40
19.89500
 50
167.40466
 51
175.29349
  0
ARC
  8
3
 10
524.86224
 20
50.24004
 40
41.87999
 50
174.88269
 51
182.77728
  0
ARC
  8
3
 10
498.86658
 20
47.96440
 40
15.83750
 50
179.10864
 51
195.69077
  0
ARC
  8
3
 10
487.85681
 20
44.64756
 40
4.34500
 50
192.84604
 51
226.31062
  0
ARC
  8
3
 10
486.67612
 20
43.48498
 40
2.69000
 50
227.39040
 51
257.40317
  0
LINE
  8
3
 10
318.35229
 20
99.17627
 11
343.41113
 21
99.17627
  0
LINE
  8
3
 10
343.41113
 20
99.17627
 11
343.41113
 21
93.41162
  0
LINE
  8
3
 10
343.41113
 20
93.41162
 11
327.29352
 21
76.70557
  0
LINE
  8
3
 10
327.29352
 20
76.70557
 11
343.99939
 21
76.70557
  0
LINE
  8
3
 10
343.99939
 20
76.70557
 11
343.99939
 21
70.52930
  0
LINE
  8
3
 10
343.99939
 20
70.52930
 11
316.82294
 21
70.52930
  0
LINE
  8
3
 10
316.82294
 20
70.52930
 11
316.82294
 21
76.47021
  0
LINE
  8
3
 10
316.82294
 20
76.47021
 11
332.70520
 21
93.05859
  0
LINE
  8
3
 10
332.70520
 20
93.05859
 11
318.35229
 21
93.05859
  0
LINE
  8
3
 10
318.35229
 20
93.05859
 11
318.35229
 21
99.17627
  0
LINE
  8
3
 10
296.29352
 20
82.47021
 11
285.11700
 21
99.17627
  0
LINE
  8
3
 10
285.11700
 20
99.17627
 11
294.94049
 21
99.17627
  0
LINE
  8
3
 10
294.94049
 20
99.17627
 11
300.70520
 21
89.52930
  0
LINE
  8
3
 10
300.70520
 20
89.52930
 11
306.47003
 21
99.17627
  0
LINE
  8
3
 10
306.47003
 20
99.17627
 11
316.29352
 21
99.17627
  0
LINE
  8
3
 10
316.29352
 20
99.17627
 11
305.17584
 21
82.47021
  0
LINE
  8
3
 10
305.17584
 20
82.47021
 11
305.17584
 21
70.52930
  0
LINE
  8
3
 10
305.17584
 20
70.52930
 11
296.29352
 21
70.52930
  0
LINE
  8
3
 10
296.29352
 20
70.52930
 11
296.29352
 21
82.47021
  0
LINE
  8
3
 10
267.64642
 20
79.70557
 11
261.99939
 21
70.52930
  0
LINE
  8
3
 10
273.29352
 20
70.52930
 11
267.64642
 21
79.70557
  0
LINE
  8
3
 10
273.47000
 20
85.29395
 11
283.23471
 21
70.52930
  0
LINE
  8
3
 10
282.41110
 20
99.17627
 11
273.47000
 21
85.29395
  0
LINE
  8
3
 10
272.76410
 20
99.17627
 11
282.41110
 21
99.17627
  0
LINE
  8
3
 10
267.82294
 20
90.35254
 11
272.76410
 21
99.17627
  0
LINE
  8
3
 10
262.76410
 20
99.17627
 11
267.82294
 21
90.35254
  0
LINE
  8
3
 10
252.99939
 20
99.17627
 11
262.76410
 21
99.17627
  0
LINE
  8
3
 10
218.41110
 20
99.17627
 11
221.47000
 21
83.23486
  0
LINE
  8
3
 10
221.47000
 20
83.23486
 11
225.88170
 21
99.17627
  0
LINE
  8
3
 10
234.23468
 20
99.17627
 11
238.70520
 21
83.11768
  0
LINE
  8
3
 10
238.70520
 20
83.11768
 11
241.70520
 21
99.17627
  0
LINE
  8
3
 10
235.05818
 20
70.52930
 11
230.05818
 21
88.52930
  0
LINE
  8
3
 10
230.05818
 20
88.52930
 11
225.05818
 21
70.52930
  0
LINE
  8
3
 10
186.35228
 20
99.17627
 11
192.76410
 21
78.52930
  0
LINE
  8
3
 10
192.76410
 20
78.52930
 11
199.11700
 21
99.17627
  0
ARC
  8
3
 10
159.66437
 20
81.62682
 40
5.57000
 50
-29.16989
 51
.81240
  0
ARC
  8
3
 10
160.79791
 20
81.06983
 40
4.31000
 50
295.39600
 51
329.95081
  0
ARC
  8
3
 10
160.32314
 20
82.64211
 40
5.94000
 50
261.74115
 51
293.02783
  0
ARC
  8
3
 10
160.55899
 20
83.85704
 40
7.17500
 50
248.59756
 51
261.27094
  0
ARC
  8
3
 10
160.31932
 20
81.57342
 40
5.00000
 50
212.17230
 51
241.58698
  0
ARC
  8
3
 10
160.49744
 20
81.41067
 40
5.07000
 50
187.32657
 51
209.54218
  0
LINE
  8
3
 10
155.46999
 20
80.76427
 11
155.47000
 21
99.17627
  0
LINE
  8
3
 10
155.47000
 20
99.17627
 11
146.64641
 21
99.17627
  0
LINE
  8
3
 10
146.64641
 20
99.17627
 11
146.64641
 21
81.23487
  0
ARC
  8
3
 10
162.24887
 20
82.22337
 40
15.63250
 50
183.62514
 51
206.79251
  0
ARC
  8
3
 10
157.50334
 20
81.09716
 40
10.95000
 50
212.73634
 51
245.70959
  0
ARC
  8
3
 10
157.17982
 20
81.01170
 40
10.74000
 50
247.09517
 51
266.21100
  0
ARC
  8
3
 10
163.87167
 20
169.82631
 40
99.80750
 50
265.74707
 51
268.38467
  0
ARC
  8
3
 10
160.51573
 20
97.01428
 40
26.96000
 50
271.15292
 51
280.77948
  0
ARC
  8
3
 10
164.05139
 20
79.51862
 40
9.11500
 50
279.51550
 51
317.43103
  0
ARC
  8
3
 10
163.20818
 20
80.88759
 40
10.67000
 50
315.07977
 51
345.28036
  0
ARC
  8
3
 10
154.11444
 20
82.79018
 40
19.95500
 50
346.63132
 51
358.06778
  0
LINE
  8
3
 10
174.05820
 20
82.11735
 11
174.05818
 21
99.17627
  0
LINE
  8
3
 10
174.05818
 20
99.17627
 11
165.23468
 21
99.17627
  0
LINE
  8
3
 10
165.23468
 20
99.17627
 11
165.23470
 21
81.70580
  0
LINE
  8
3
 10
124.70520
 20
70.52930
 11
133.52881
 21
70.52930
  0
LINE
  8
3
 10
133.52881
 20
70.52930
 11
133.52881
 21
92.11768
  0
LINE
  8
3
 10
142.52881
 20
99.17627
 11
115.70520
 21
99.17627
  0
LINE
  8
3
 10
142.52881
 20
92.11768
 11
142.52881
 21
99.17627
  0
LINE
  8
3
 10
133.52881
 20
92.11768
 11
142.52881
 21
92.11768
  0
LINE
  8
3
 10
115.70520
 20
92.11768
 11
124.70520
 21
92.11768
  0
LINE
  8
3
 10
115.70520
 20
99.17627
 11
115.70520
 21
92.11768
  0
ARC
  8
3
 10
104.70641
 20
91.95856
 40
6.94000
 50
24.85817
 51
54.21625
  0
ARC
  8
3
 10
101.96493
 20
86.66144
 40
12.87000
 50
58.10771
 51
71.73004
  0
ARC
  8
3
 10
101.56567
 20
84.64845
 40
14.90750
 50
72.69832
 51
86.52234
  0
ARC
  8
3
 10
100.23338
 20
78.45557
 40
21.19250
 50
83.94168
 51
94.29468
  0
ARC
  8
3
 10
101.40827
 20
69.95247
 40
29.76500
 50
95.32430
 51
103.59686
  0
ARC
  8
3
 10
98.65054
 20
86.88680
 40
12.72250
 50
109.46445
 51
128.64609
  0
ARC
  8
3
 10
96.20734
 20
91.04256
 40
7.98000
 50
133.58536
 51
160.05829
  0
ARC
  8
3
 10
95.38406
 20
91.22003
 40
7.14750
 50
159.14464
 51
190.30821
  0
ARC
  8
3
 10
95.06606
 20
90.88662
 40
6.78000
 50
188.01640
 51
219.34642
  0
ARC
  8
3
 10
98.95245
 20
95.51068
 40
12.76500
 50
224.34329
 51
251.40466
  0
ARC
  8
3
 10
105.56427
 20
112.22162
 40
30.72750
 50
249.65564
 51
259.00754
  0
ARC
  8
3
 10
97.61961
 20
70.69241
 40
11.55500
 50
58.90572
 51
79.60202
  0
ARC
  8
3
 10
101.71944
 20
78.40381
 40
2.87500
 50
3.67563
 51
49.45795
  0
ARC
  8
3
 10
101.69102
 20
78.79726
 40
2.90500
 50
298.08441
 51
355.86911
  0
ARC
  8
3
 10
100.55486
 20
81.28757
 40
5.63750
 50
259.24146
 51
296.35687
  0
ARC
  8
3
 10
100.43613
 20
80.66003
 40
5.00000
 50
240.17694
 51
259.23572
  0
ARC
  8
3
 10
100.65695
 20
81.04507
 40
5.44500
 50
231.84099
 51
240.17610
  0
ARC
  8
3
 10
99.68707
 20
79.83985
 40
3.89750
 50
192.44753
 51
232.10524
  0
LINE
  8
3
 10
95.64640
 20
80.52930
 11
95.88171
 21
78.99988
  0
LINE
  8
3
 10
87.23470
 20
80.00000
 11
95.64640
 21
80.52930
  0
LINE
  8
3
 10
87.47000
 20
78.29415
 11
87.23470
 21
80.00000
  0
ARC
  8
3
 10
98.52076
 20
80.31081
 40
11.23250
 50
190.34215
 51
206.52599
  0
ARC
  8
3
 10
96.77692
 20
79.67051
 40
9.39000
 50
207.78255
 51
226.82330
  0
ARC
  8
3
 10
96.45848
 20
79.38817
 40
8.96500
 50
227.07275
 51
249.32822
  0
ARC
  8
3
 10
100.28989
 20
96.24980
 40
26.20250
 50
254.51276
 51
264.33878
  0
ARC
  8
3
 10
100.11057
 20
94.17139
 40
24.11500
 50
264.27560
 51
276.38760
  0
ARC
  8
3
 10
102.60217
 20
81.88181
 40
11.67750
 50
270.93884
 51
305.31253
  0
ARC
  8
3
 10
103.97342
 20
79.75417
 40
9.15000
 50
306.00702
 51
336.72714
  0
ARC
  8
3
 10
102.97375
 20
80.00294
 40
10.16750
 50
-22.33484
 51
2.16060
  0
ARC
  8
3
 10
108.13763
 20
80.19769
 40
5.00000
 50
2.16143
 51
9.63799
  0
ARC
  8
3
 10
103.78994
 20
79.45947
 40
9.41000
 50
9.63737
 51
25.24649
  0
ARC
  8
3
 10
107.77868
 20
81.34027
 40
5.00000
 50
25.24767
 51
39.68024
  0
ARC
  8
3
 10
102.90067
 20
77.29339
 40
11.33750
 50
39.67995
 51
59.10001
  0
ARC
  8
3
 10
106.15455
 20
82.73243
 40
5.00000
 50
59.08701
 51
67.84853
  0
ARC
  8
3
 10
89.94440
 20
42.89378
 40
48.01000
 50
67.85776
 51
72.83057
  0
LINE
  8
3
 10
100.06193
 20
89.76223
 11
104.11699
 21
88.76466
  0
ARC
  8
3
 10
104.61189
 20
111.54891
 40
22.25750
 50
252.23999
 51
258.20383
  0
ARC
  8
3
 10
98.78951
 20
92.78032
 40
2.61250
 50
210.08916
 51
248.28748
  0
ARC
  8
3
 10
98.26776
 20
92.02944
 40
1.82750
 50
142.06554
 51
197.82158
  0
ARC
  8
3
 10
98.99896
 20
91.52995
 40
2.71000
 50
102.52380
 51
143.23984
  0
ARC
  8
3
 10
99.48487
 20
89.34766
 40
4.94750
 50
79.27576
 51
102.53685
  0
ARC
  8
3
 10
101.33762
 20
99.12035
 40
5.00000
 50
259.25446
 51
262.64252
  0
ARC
  8
3
 10
100.27157
 20
90.85701
 40
3.33250
 50
40.02545
 51
82.65848
  0
ARC
  8
3
 10
98.55725
 20
89.66556
 40
5.41500
 50
10.44218
 51
38.01263
  0
LINE
  8
3
 10
112.23470
 20
91.11749
 11
103.88169
 21
90.64683
  0
ARC
  8
3
 10
101.48248
 20
89.67440
 40
10.84750
 50
7.64419
 51
28.64915
  0
ARC
  8
3
 10
37.76416
 20
87.58777
 40
5.30250
 50
109.43930
 51
139.94795
  0
ARC
  8
3
 10
39.48165
 20
86.51170
 40
7.31500
 50
142.15326
 51
159.13063
  0
ARC
  8
3
 10
46.17567
 20
85.29200
 40
14.06000
 50
164.21080
 51
180.71098
  0
ARC
  8
3
 10
52.37684
 20
84.90919
 40
20.26000
 50
179.41081
 51
188.76062
  0
ARC
  8
3
 10
39.55308
 20
82.77943
 40
7.26500
 50
187.56334
 51
207.62187
  0
ARC
  8
3
 10
37.52861
 20
81.71146
 40
4.97500
 50
207.53394
 51
263.89380
  0
ARC
  8
3
 10
38.20887
 20
86.52872
 40
9.84000
 50
262.93884
 51
264.74756
  0
ARC
  8
3
 10
38.01799
 20
92.44379
 40
22.38500
 50
257.50769
 51
268.18304
  0
ARC
  8
3
 10
35.68808
 20
82.26851
 40
11.94750
 50
216.76479
 51
257.86133
  0
ARC
  8
3
 10
37.12281
 20
83.39463
 40
13.77000
 50
180.41905
 51
216.94540
  0
ARC
  8
3
 10
41.38486
 20
85.06260
 40
18.12000
 50
157.48853
 51
185.60181
  0
ARC
  8
3
 10
35.69319
 20
87.17622
 40
12.05500
 50
114.13687
 51
156.41142
  0
ARC
  8
3
 10
37.68478
 20
85.29192
 40
7.65500
 50
68.42966
 51
81.56148
  0
ARC
  8
3
 10
38.63506
 20
87.58289
 40
5.17500
 50
42.18746
 51
68.88867
  0
ARC
  8
3
 10
37.93206
 20
87.39644
 40
5.83250
 50
11.49567
 51
38.90442
  0
ARC
  8
3
 10
24.28374
 20
84.21196
 40
19.84500
 50
1.93529
 51
12.65229
  0
ARC
  8
3
 10
31.70485
 20
84.28654
 40
12.42750
 50
-23.98593
 51
2.74716
  0
ARC
  8
3
 10
33.90263
 20
68.36320
 40
14.21250
 50
49.89806
 51
74.48245
  0
LINE
  8
3
 10
37.70520
 20
82.05853
 11
36.29350
 21
78.88237
  0
ARC
  8
3
 10
31.74490
 20
67.03033
 40
12.69500
 50
50.48212
 51
69.00410
  0
ARC
  8
3
 10
68.36462
 20
100.54828
 40
37.21999
 50
231.81033
 51
243.10709
  0
LINE
  8
3
 10
51.52879
 20
67.35287
 11
54.05820
 21
72.29379
  0
ARC
  8
3
 10
59.46683
 20
86.71610
 40
15.40250
 50
231.23691
 51
249.44305
  0
ARC
  8
3
 10
44.05006
 20
79.95489
 40
7.80250
 50
317.71976
 51
339.36993
  0
ARC
  8
3
 10
37.42109
 20
83.84531
 40
15.43250
 50
334.51782
 51
359.26291
  0
ARC
  8
3
 10
34.10559
 20
85.19890
 40
18.81000
 50
-4.73294
 51
14.78654
  0
ARC
  8
3
 10
40.19118
 20
86.95643
 40
12.48000
 50
14.11540
 51
54.98096
  0
ARC
  8
3
 10
38.60390
 20
82.98137
 40
16.67500
 50
58.35437
 51
89.29800
  0
ARC
  8
3
 10
491.30701
 20
131.38004
 40
5.00000
 50
23.76546
 51
27.43556
  0
ARC
  8
3
 10
492.90833
 20
132.08589
 40
3.25000
 50
-18.96942
 51
23.75346
  0
ARC
  8
3
 10
493.00107
 20
132.22592
 40
3.21250
 50
310.79236
 51
338.12933
  0
ARC
  8
3
 10
493.14420
 20
132.15219
 40
3.06250
 50
285.86975
 51
309.66650
  0
ARC
  8
3
 10
491.79498
 20
136.45511
 40
7.57250
 50
278.55307
 51
286.78650
  0
ARC
  8
3
 10
492.17734
 20
133.91162
 40
5.00000
 50
270.00000
 51
278.55511
  0
LINE
  8
3
 10
491.33484
 20
128.91162
 11
492.17743
 21
128.91162
  0
LINE
  8
3
 10
491.86429
 20
135.32335
 11
491.33484
 21
135.32373
  0
ARC
  8
3
 10
491.96921
 20
128.00389
 40
7.32000
 50
72.11612
 51
90.82124
  0
ARC
  8
3
 10
493.42554
 20
132.48045
 40
2.61250
 50
27.42374
 51
72.36302
  0
LINE
  8
3
 10
495.15521
 20
123.11744
 11
491.33484
 21
123.11768
  0
LINE
  8
3
 10
489.33484
 20
141.14697
 11
489.33484
 21
112.50000
  0
LINE
  8
3
 10
489.33484
 20
112.50000
 11
480.45245
 21
112.50000
  0
LINE
  8
3
 10
480.45245
 20
112.50000
 11
480.45245
 21
141.14697
  0
LINE
  8
3
 10
480.45245
 20
141.14697
 11
489.33484
 21
141.14697
  0
ARC
  8
3
 10
495.53061
 20
129.95073
 40
11.20500
 50
55.96896
 51
90.00000
  0
ARC
  8
3
 10
499.00293
 20
135.09308
 40
5.00000
 50
38.85558
 51
55.96629
  0
ARC
  8
3
 10
497.00009
 20
133.47858
 40
7.57250
 50
10.07983
 51
38.86134
  0
ARC
  8
3
 10
514.30139
 20
136.55408
 40
10.00000
 50
190.07956
 51
191.98143
  0
ARC
  8
3
 10
494.31512
 20
132.31235
 40
10.43250
 50
-12.11145
 51
11.98298
  0
ARC
  8
3
 10
514.29230
 20
128.02786
 40
10.00000
 50
167.90213
 51
169.77667
  0
ARC
  8
3
 10
496.86200
 20
131.17305
 40
7.71250
 50
301.77481
 51
349.76456
  0
ARC
  8
3
 10
496.43616
 20
131.55847
 40
8.26500
 50
280.76611
 51
302.87750
  0
ARC
  8
3
 10
495.34409
 20
134.03539
 40
10.92000
 50
269.00891
 51
283.96936
  0
ARC
  8
3
 10
460.78583
 20
128.61472
 40
6.29750
 50
44.51364
 51
79.73102
  0
ARC
  8
3
 10
457.00031
 20
127.54047
 40
9.93000
 50
-1.64362
 51
33.55432
  0
ARC
  8
3
 10
476.92264
 20
126.96684
 40
10.00000
 50
178.34505
 51
179.66249
  0
ARC
  8
3
 10
450.53235
 20
127.11909
 40
16.39000
 50
339.29297
 51
359.67371
  0
ARC
  8
3
 10
461.32339
 20
123.86425
 40
5.20250
 50
276.45520
 51
330.77161
  0
ARC
  8
3
 10
460.45499
 20
123.78420
 40
5.13000
 50
207.92184
 51
269.47943
  0
ARC
  8
3
 10
466.61432
 20
126.22076
 40
11.73500
 50
175.98880
 51
204.34901
  0
ARC
  8
3
 10
444.93250
 20
127.74139
 40
10.00000
 50
-4.01251
 51
1.33695
  0
ARC
  8
3
 10
463.01508
 20
128.16360
 40
8.08750
 50
143.53043
 51
181.33830
  0
ARC
  8
3
 10
460.64874
 20
129.53857
 40
5.37500
 50
92.56265
 51
140.32245
  0
ARC
  8
3
 10
457.74451
 20
122.44002
 40
10.00000
 50
246.28760
 51
257.96494
  0
ARC
  8
3
 10
458.61044
 20
124.41129
 40
12.15250
 50
220.25049
 51
246.28717
  0
ARC
  8
3
 10
459.63458
 20
125.26179
 40
13.48500
 50
182.51721
 51
220.19693
  0
ARC
  8
3
 10
436.17288
 20
124.23067
 40
10.00000
 50
2.51549
 51
4.01137
  0
ARC
  8
3
 10
467.90002
 20
126.45596
 40
21.80500
 50
159.67609
 51
184.01239
  0
ARC
  8
3
 10
458.52509
 20
129.05118
 40
12.14000
 50
108.56079
 51
155.79124
  0
ARC
  8
3
 10
460.86526
 20
123.32461
 40
18.31750
 50
82.13469
 51
86.73538
  0
ARC
  8
3
 10
460.86267
 20
123.32441
 40
18.31750
 50
91.42111
 51
109.79050
  0
ARC
  8
3
 10
464.73886
 20
151.37573
 40
10.00000
 50
262.14325
 51
264.37665
  0
ARC
  8
3
 10
462.40466
 20
127.69826
 40
13.79250
 50
50.08681
 51
84.36482
  0
ARC
  8
3
 10
464.83829
 20
130.60645
 40
10.00000
 50
40.26748
 51
50.09055
  0
ARC
  8
3
 10
462.60187
 20
128.71330
 40
12.93000
 50
16.81977
 51
40.26309
  0
ARC
  8
3
 10
465.40652
 20
129.56160
 40
10.00000
 50
12.66112
 51
16.81721
  0
ARC
  8
3
 10
453.39050
 20
126.86079
 40
22.31500
 50
-6.41696
 51
12.66474
  0
ARC
  8
3
 10
485.50397
 20
123.24976
 40
10.00000
 50
173.58698
 51
175.99690
  0
ARC
  8
3
 10
462.70425
 20
124.84612
 40
12.85500
 50
310.56467
 51
355.99326
  0
ARC
  8
3
 10
464.56055
 20
122.67631
 40
10.00000
 50
300.47559
 51
310.56964
  0
ARC
  8
3
 10
462.59012
 20
126.02691
 40
13.88750
 50
272.35278
 51
300.47095
  0
ARC
  8
3
 10
463.56567
 20
102.15988
 40
10.00000
 50
92.32376
 51
93.77364
  0
ARC
  8
3
 10
461.15842
 20
138.44971
 40
26.37000
 50
257.96344
 51
268.37012
  0
LINE
  8
3
 10
432.98187
 20
141.14697
 11
441.33484
 21
141.14697
  0
LINE
  8
3
 10
441.33484
 20
141.14697
 11
441.33484
 21
112.50000
  0
LINE
  8
3
 10
441.33484
 20
112.50000
 11
432.98187
 21
112.50000
  0
LINE
  8
3
 10
422.27606
 20
112.50000
 11
413.98187
 21
112.50000
  0
LINE
  8
3
 10
413.98187
 20
112.50000
 11
413.98187
 21
141.14697
  0
LINE
  8
3
 10
422.21716
 20
141.14697
 11
432.98187
 21
125.26465
  0
LINE
  8
3
 10
432.98187
 20
125.26465
 11
432.98187
 21
141.14697
  0
LINE
  8
3
 10
422.27606
 20
128.20605
 11
422.27606
 21
112.50000
  0
LINE
  8
3
 10
432.98187
 20
112.50000
 11
422.27606
 21
128.20605
  0
LINE
  8
3
 10
396.62897
 20
141.14697
 11
408.27606
 21
141.14697
  0
LINE
  8
3
 10
408.27606
 20
141.14697
 11
408.27606
 21
112.50000
  0
LINE
  8
3
 10
408.27606
 20
112.50000
 11
401.04077
 21
112.50000
  0
LINE
  8
3
 10
383.27606
 20
112.50000
 11
376.04077
 21
112.50000
  0
LINE
  8
3
 10
376.04077
 20
112.50000
 11
376.04077
 21
141.14697
  0
LINE
  8
3
 10
401.04077
 20
134.32373
 11
395.39368
 21
112.50000
  0
LINE
  8
3
 10
401.04077
 20
112.50000
 11
401.04077
 21
134.32373
  0
LINE
  8
3
 10
388.86426
 20
112.50000
 11
383.27606
 21
134.32373
  0
LINE
  8
3
 10
383.27606
 20
134.32373
 11
383.27606
 21
112.50000
  0
LINE
  8
3
 10
387.68774
 20
141.14697
 11
392.15839
 21
123.67627
  0
LINE
  8
3
 10
392.15839
 20
123.67627
 11
396.62897
 21
141.14697
  0
LINE
  8
3
 10
372.09955
 20
112.50000
 11
349.45245
 21
112.50000
  0
LINE
  8
3
 10
349.45245
 20
112.50000
 11
349.45245
 21
141.14697
  0
LINE
  8
3
 10
349.45245
 20
141.14697
 11
358.27606
 21
141.14697
  0
LINE
  8
3
 10
358.27606
 20
141.14697
 11
358.27606
 21
119.55908
  0
LINE
  8
3
 10
358.27606
 20
119.55908
 11
372.09955
 21
119.55908
  0
LINE
  8
3
 10
324.98187
 20
112.50000
 11
316.15839
 21
112.50000
  0
LINE
  8
3
 10
316.15839
 20
112.50000
 11
316.15839
 21
141.14697
  0
LINE
  8
3
 10
335.57019
 20
130.38232
 11
346.51135
 21
112.50000
  0
LINE
  8
3
 10
346.51135
 20
141.14697
 11
335.57019
 21
130.38232
  0
LINE
  8
3
 10
324.98187
 20
141.14697
 11
324.98187
 21
130.26465
  0
LINE
  8
3
 10
324.98187
 20
130.26465
 11
334.21716
 21
141.14697
  0
LINE
  8
3
 10
324.98187
 20
119.44141
 11
324.98187
 21
112.50000
  0
LINE
  8
3
 10
329.51135
 20
124.26465
 11
324.98187
 21
119.44141
  0
LINE
  8
3
 10
335.57019
 20
112.50000
 11
329.51135
 21
124.26465
  0
ARC
  8
3
 10
296.15570
 20
121.41760
 40
9.08500
 50
232.53560
 51
256.48175
  0
ARC
  8
3
 10
295.91443
 20
120.69296
 40
8.36750
 50
198.56140
 51
230.82852
  0
ARC
  8
3
 10
297.82385
 20
121.98969
 40
10.61000
 50
178.83281
 51
201.91975
  0
LINE
  8
3
 10
295.68774
 20
123.38244
 11
287.21716
 21
122.20580
  0
ARC
  8
3
 10
301.94128
 20
122.56536
 40
6.30750
 50
172.55600
 51
206.06618
  0
ARC
  8
3
 10
298.46881
 20
121.23976
 40
2.62750
 50
213.39574
 51
282.57831
  0
ARC
  8
3
 10
298.64346
 20
121.08833
 40
2.44500
 50
279.35410
 51
338.84024
  0
ARC
  8
3
 10
290.37180
 20
123.39243
 40
11.02250
 50
-16.80423
 51
.25402
  0
LINE
  8
3
 10
301.39368
 20
141.14697
 11
301.39365
 21
123.44130
  0
LINE
  8
3
 10
310.27606
 20
141.14697
 11
301.39368
 21
141.14697
  0
LINE
  8
3
 10
310.27606
 20
126.58757
 11
310.27606
 21
141.14697
  0
ARC
  8
3
 10
266.47888
 20
126.07300
 40
43.80000
 50
-7.30991
 51
.67314
  0
ARC
  8
3
 10
300.96375
 20
121.20277
 40
8.98750
 50
325.76675
 51
355.51508
  0
ARC
  8
3
 10
299.68533
 20
123.05233
 40
11.11500
 50
290.13644
 51
321.58752
  0
ARC
  8
3
 10
298.01590
 20
136.88269
 40
24.88000
 50
272.63202
 51
282.76093
  0
ARC
  8
3
 10
299.66687
 20
140.74371
 40
28.71750
 50
258.68420
 51
268.98547
  0
LINE
  8
3
 10
274.27606
 20
141.14697
 11
283.15839
 21
141.14697
  0
LINE
  8
3
 10
283.15839
 20
141.14697
 11
283.15839
 21
112.50000
  0
LINE
  8
3
 10
283.15839
 20
112.50000
 11
274.27606
 21
112.50000
  0
LINE
  8
3
 10
274.27606
 20
112.50000
 11
274.27606
 21
141.14697
  0
LINE
  8
3
 10
268.04077
 20
141.14697
 11
259.15839
 21
141.14697
  0
LINE
  8
3
 10
259.15839
 20
141.14697
 11
259.15839
 21
131.14697
  0
LINE
  8
3
 10
259.15839
 20
131.14697
 11
249.45248
 21
131.14697
  0
LINE
  8
3
 10
249.45248
 20
131.14697
 11
249.45248
 21
141.14697
  0
LINE
  8
3
 10
249.45248
 20
141.14697
 11
240.62898
 21
141.14697
  0
LINE
  8
3
 10
240.62898
 20
141.14697
 11
240.62898
 21
112.50000
  0
LINE
  8
3
 10
240.62898
 20
112.50000
 11
249.45248
 21
112.50000
  0
LINE
  8
3
 10
249.45248
 20
112.50000
 11
249.45248
 21
124.08838
  0
LINE
  8
3
 10
249.45248
 20
124.08838
 11
259.15839
 21
124.08838
  0
LINE
  8
3
 10
259.15839
 20
124.08838
 11
259.15839
 21
112.50000
  0
LINE
  8
3
 10
259.15839
 20
112.50000
 11
268.04077
 21
112.50000
  0
LINE
  8
3
 10
268.04077
 20
112.50000
 11
268.04077
 21
141.14697
  0
ARC
  8
3
 10
221.65129
 20
145.40530
 40
33.34750
 50
262.77304
 51
270.62268
  0
ARC
  8
3
 10
218.83853
 20
124.57941
 40
12.33500
 50
227.02002
 51
263.56512
  0
ARC
  8
3
 10
217.24698
 20
122.87197
 40
10.00000
 50
214.85158
 51
227.02194
  0
ARC
  8
3
 10
221.92546
 20
126.12994
 40
15.70000
 50
194.00345
 51
214.85184
  0
ARC
  8
3
 10
216.39374
 20
124.75049
 40
10.00000
 50
190.00050
 51
194.00412
  0
ARC
  8
3
 10
227.84004
 20
126.76863
 40
21.62250
 50
170.53743
 51
189.99985
  0
ARC
  8
3
 10
220.30739
 20
128.10396
 40
13.97250
 50
144.55894
 51
170.86040
  0
ARC
  8
3
 10
219.15324
 20
128.63783
 40
12.72500
 50
107.40933
 51
143.50400
  0
ARC
  8
3
 10
218.33704
 20
131.23846
 40
10.00000
 50
104.10223
 51
107.40521
  0
ARC
  8
3
 10
221.51099
 20
118.61325
 40
23.01750
 50
86.36743
 51
104.10753
  0
ARC
  8
3
 10
223.60434
 20
151.56490
 40
10.00000
 50
266.35941
 51
270.38135
  0
ARC
  8
3
 10
223.76723
 20
127.38822
 40
14.17750
 50
70.77966
 51
90.38931
  0
ARC
  8
3
 10
225.14250
 20
131.33255
 40
10.00000
 50
36.76839
 51
70.78044
  0
ARC
  8
3
 10
224.97792
 20
131.20952
 40
10.20500
 50
12.96897
 51
36.76862
  0
LINE
  8
3
 10
234.92307
 20
133.49986
 11
226.39366
 21
131.97038
  0
ARC
  8
3
 10
221.75728
 20
130.41364
 40
4.89000
 50
18.56038
 51
58.59904
  0
ARC
  8
3
 10
221.29512
 20
128.80080
 40
6.52250
 50
62.51808
 51
89.13448
  0
ARC
  8
3
 10
221.72421
 20
126.80176
 40
8.52750
 50
92.22134
 51
106.70035
  0
ARC
  8
3
 10
220.76375
 20
130.29037
 40
4.91250
 50
107.66351
 51
131.46909
  0
ARC
  8
3
 10
221.28017
 20
129.49596
 40
5.85000
 50
130.10649
 51
151.11311
  0
ARC
  8
3
 10
221.40166
 20
129.35832
 40
6.02250
 50
150.52507
 51
167.93242
  0
ARC
  8
3
 10
230.17165
 20
127.08591
 40
15.08000
 50
166.45538
 51
182.90254
  0
ARC
  8
3
 10
205.12410
 20
125.81601
 40
10.00000
 50
-.32449
 51
2.90214
  0
ARC
  8
3
 10
225.50510
 20
125.70072
 40
10.38250
 50
179.67627
 51
202.50095
  0
ARC
  8
3
 10
221.05417
 20
123.85694
 40
5.56250
 50
202.50040
 51
241.43253
  0
ARC
  8
3
 10
221.62999
 20
126.39749
 40
8.10250
 50
246.45438
 51
278.32706
  0
ARC
  8
3
 10
220.69131
 20
131.40305
 40
13.19250
 50
279.21252
 51
301.43005
  0
LINE
  8
3
 10
227.57019
 20
120.14693
 11
227.57019
 21
122.85303
  0
LINE
  8
3
 10
227.57019
 20
122.85303
 11
221.68779
 21
122.85303
  0
LINE
  8
3
 10
221.68779
 20
122.85303
 11
221.68779
 21
128.79395
  0
LINE
  8
3
 10
221.68779
 20
128.79395
 11
235.33488
 21
128.79395
  0
LINE
  8
3
 10
235.33488
 20
128.79395
 11
235.33490
 21
116.61755
  0
ARC
  8
3
 10
219.18633
 20
139.35544
 40
27.89000
 50
288.94955
 51
305.38257
  0
ARC
  8
3
 10
224.99565
 20
122.43609
 40
10.00000
 50
282.21893
 51
288.94855
  0
ARC
  8
3
 10
221.41331
 20
139.00261
 40
26.95000
 50
271.27655
 51
282.20813
  0
LINE
  8
3
 10
189.51138
 20
112.50000
 11
180.62898
 21
112.50000
  0
LINE
  8
3
 10
180.62898
 20
112.50000
 11
180.62898
 21
141.14697
  0
LINE
  8
3
 10
180.62898
 20
141.14697
 11
202.57019
 21
141.14697
  0
LINE
  8
3
 10
202.57019
 20
141.14697
 11
202.57019
 21
134.97070
  0
LINE
  8
3
 10
202.57019
 20
134.97070
 11
189.51138
 21
134.97070
  0
LINE
  8
3
 10
189.51138
 20
134.97070
 11
189.51138
 21
129.97070
  0
LINE
  8
3
 10
189.51138
 20
129.97070
 11
200.68779
 21
129.97070
  0
LINE
  8
3
 10
200.68779
 20
129.97070
 11
200.68779
 21
124.20605
  0
LINE
  8
3
 10
200.68779
 20
124.20605
 11
189.51138
 21
124.20605
  0
LINE
  8
3
 10
189.51138
 20
124.20605
 11
189.51138
 21
112.50000
  0
LINE
  8
3
 10
174.27606
 20
130.44141
 11
174.27606
 21
124.61768
  0
LINE
  8
3
 10
174.27606
 20
124.61768
 11
160.51138
 21
124.61768
  0
LINE
  8
3
 10
160.51138
 20
124.61768
 11
160.51138
 21
118.97070
  0
LINE
  8
3
 10
160.51138
 20
118.97070
 11
175.80548
 21
118.97070
  0
LINE
  8
3
 10
175.80548
 20
118.97070
 11
175.80548
 21
112.50000
  0
LINE
  8
3
 10
175.80548
 20
112.50000
 11
151.62897
 21
112.50000
  0
LINE
  8
3
 10
151.62897
 20
112.50000
 11
151.62897
 21
141.14697
  0
LINE
  8
3
 10
151.62897
 20
141.14697
 11
175.80548
 21
141.14697
  0
LINE
  8
3
 10
175.80548
 20
141.14697
 11
175.80548
 21
135.02930
  0
LINE
  8
3
 10
175.80548
 20
135.02930
 11
160.51138
 21
135.02930
  0
LINE
  8
3
 10
160.51138
 20
135.02930
 11
160.51138
 21
130.44141
  0
LINE
  8
3
 10
160.51138
 20
130.44141
 11
174.27606
 21
130.44141
  0
ARC
  8
3
 10
126.09685
 20
126.99479
 40
20.99500
 50
-2.64651
 51
13.77922
  0
ARC
  8
3
 10
127.59677
 20
126.02386
 40
19.47250
 50
-17.02069
 51
.00429
  0
ARC
  8
3
 10
135.14607
 20
124.08018
 40
11.69000
 50
315.27505
 51
341.25763
  0
ARC
  8
3
 10
136.03056
 20
123.06499
 40
10.35000
 50
292.44617
 51
315.82239
  0
ARC
  8
3
 10
133.01627
 20
135.65967
 40
23.22750
 50
274.41769
 51
287.45007
  0
LINE
  8
3
 10
129.57018
 20
112.50000
 11
120.74657
 21
112.50000
  0
LINE
  8
3
 10
120.74657
 20
112.50000
 11
120.74657
 21
141.14697
  0
LINE
  8
3
 10
120.74657
 20
141.14697
 11
129.57018
 21
141.14697
  0
ARC
  8
3
 10
134.30724
 20
125.56349
 40
15.59000
 50
66.43188
 51
91.62817
  0
ARC
  8
3
 10
135.77078
 20
130.26089
 40
10.71250
 50
36.39724
 51
63.55998
  0
ARC
  8
3
 10
135.10968
 20
129.62454
 40
11.62250
 50
11.77061
 51
36.98844
  0
LINE
  8
3
 10
129.57018
 20
141.14697
 11
129.57018
 21
112.50000
  0
ARC
  8
3
 10
130.72855
 20
116.29843
 40
18.40750
 50
79.26076
 51
86.82945
  0
ARC
  8
3
 10
132.83559
 20
129.04051
 40
5.50250
 50
45.57359
 51
76.09180
  0
ARC
  8
3
 10
132.16844
 20
129.48326
 40
5.70750
 50
16.94634
 51
37.65563
  0
ARC
  8
3
 10
115.32894
 20
125.92882
 40
22.90250
 50
2.01807
 51
13.17048
  0
ARC
  8
3
 10
113.74535
 20
126.93881
 40
24.47250
 50
352.54800
 51
359.52359
  0
ARC
  8
3
 10
131.30873
 20
124.41702
 40
6.73500
 50
328.33926
 51
354.44226
  0
ARC
  8
3
 10
134.09224
 20
122.68072
 40
3.45250
 50
297.51483
 51
328.61890
  0
ARC
  8
3
 10
132.89406
 20
125.93945
 40
6.91250
 50
268.77734
 51
293.84152
  0
LINE
  8
3
 10
35.21718
 20
141.14697
 11
24.51138
 21
112.50000
  0
LINE
  8
3
 10
44.98188
 20
141.14697
 11
35.21718
 21
141.14697
  0
LINE
  8
3
 10
55.68777
 20
112.50000
 11
44.98188
 21
141.14697
  0
LINE
  8
3
 10
46.39368
 20
112.50000
 11
55.68777
 21
112.50000
  0
LINE
  8
3
 10
44.98188
 20
117.20605
 11
46.39368
 21
112.50000
  0
LINE
  8
3
 10
34.92308
 20
117.20605
 11
39.20247
 21
117.20605
  0
LINE
  8
3
 10
33.51138
 20
112.50000
 11
34.92308
 21
117.20605
  0
LINE
  8
3
 10
24.51138
 20
112.50000
 11
33.51138
 21
112.50000
  0
LINE
  8
3
 10
36.86428
 20
123.38232
 11
39.98188
 21
133.67627
  0
LINE
  8
3
 10
39.98188
 20
133.67627
 11
43.09958
 21
123.38232
  0
LINE
  8
3
 10
39.23192
 20
123.38232
 11
36.86428
 21
123.38232
  0
LINE
  8
3
 10
58.51138
 20
141.14697
 11
58.51138
 21
112.50000
  0
LINE
  8
3
 10
58.51138
 20
112.50000
 11
67.45248
 21
112.50000
  0
LINE
  8
3
 10
68.95248
 20
129.91162
 11
72.04079
 21
129.91170
  0
LINE
  8
3
 10
67.45248
 20
112.50000
 11
67.45248
 21
141.14697
  0
LINE
  8
3
 10
68.95248
 20
118.67627
 11
72.74659
 21
118.67661
  0
ARC
  8
3
 10
75.66933
 20
132.51810
 40
8.65250
 50
45.10406
 51
94.16617
  0
ARC
  8
3
 10
77.09651
 20
134.08752
 40
6.53250
 50
-1.02560
 51
44.25570
  0
ARC
  8
3
 10
76.76024
 20
134.01054
 40
6.87000
 50
320.24310
 51
359.66666
  0
ARC
  8
3
 10
77.41592
 20
133.75444
 40
6.20500
 50
284.05746
 51
318.18869
  0
ARC
  8
3
 10
76.48895
 20
118.01302
 40
10.02250
 50
50.93176
 51
75.94397
  0
ARC
  8
3
 10
79.39959
 20
121.61087
 40
5.39500
 50
20.50130
 51
50.84978
  0
ARC
  8
3
 10
76.97322
 20
120.63033
 40
8.01000
 50
-18.50058
 51
20.99236
  0
ARC
  8
3
 10
77.11884
 20
120.53964
 40
7.84500
 50
306.15399
 51
341.79004
  0
ARC
  8
3
 10
78.02579
 20
119.07480
 40
6.12750
 50
282.33527
 51
307.38727
  0
ARC
  8
3
 10
74.75113
 20
130.64355
 40
18.14250
 50
270.35727
 51
284.63361
  0
LINE
  8
3
 10
71.92308
 20
124.44125
 11
68.95248
 21
124.44141
  0
ARC
  8
3
 10
71.63411
 20
114.60060
 40
9.84500
 50
79.00723
 51
88.31799
  0
ARC
  8
3
 10
73.15228
 20
120.93112
 40
3.35250
 50
53.25200
 51
83.85182
  0
ARC
  8
3
 10
73.51490
 20
121.65033
 40
2.56250
 50
9.83967
 51
50.12733
  0
ARC
  8
3
 10
73.95168
 20
121.58842
 40
2.14750
 50
-13.45926
 51
13.46011
  0
ARC
  8
3
 10
71.77352
 20
121.90572
 40
4.34500
 50
336.12592
 51
349.15787
  0
ARC
  8
3
 10
73.33545
 20
121.55784
 40
2.79250
 50
310.73596
 51
329.67099
  0
ARC
  8
3
 10
72.78465
 20
122.71584
 40
4.04500
 50
289.85571
 51
305.93744
  0
ARC
  8
3
 10
71.46257
 20
128.95311
 40
6.37250
 50
78.91331
 51
91.14836
  0
ARC
  8
3
 10
70.60822
 20
127.20054
 40
8.27000
 50
67.70068
 51
75.43782
  0
ARC
  8
3
 10
73.31087
 20
133.61229
 40
1.31500
 50
29.74645
 51
70.64880
  0
ARC
  8
3
 10
71.80695
 20
132.50052
 40
3.18000
 50
3.16896
 51
33.69708
  0
ARC
  8
3
 10
71.62404
 20
132.78139
 40
3.36000
 50
336.91217
 51
358.20746
  0
ARC
  8
3
 10
73.25658
 20
131.81598
 40
1.50000
 50
306.96222
 51
346.42630
  0
ARC
  8
3
 10
72.83743
 20
132.03172
 40
1.93500
 50
283.10205
 51
313.04913
  0
ARC
  8
3
 10
72.08067
 20
133.06250
 40
3.15000
 50
269.27487
 51
292.29474
  0
ARC
  8
3
 10
102.89661
 20
129.68211
 40
5.21750
 50
116.87846
 51
132.47562
  0
ARC
  8
3
 10
102.74979
 20
129.84375
 40
5.00000
 50
132.48546
 51
164.21823
  0
ARC
  8
3
 10
111.96409
 20
127.22966
 40
14.57750
 50
164.18089
 51
178.47606
  0
ARC
  8
3
 10
113.38244
 20
126.36095
 40
16.04000
 50
175.50757
 51
192.02304
  0
ARC
  8
3
 10
92.80315
 20
121.98007
 40
5.00000
 50
9.68937
 51
12.00028
  0
ARC
  8
3
 10
103.14342
 20
123.74511
 40
5.49000
 50
189.68442
 51
226.91847
  0
ARC
  8
3
 10
102.48077
 20
123.63670
 40
4.97500
 50
231.64499
 51
271.85449
  0
ARC
  8
3
 10
102.80423
 20
113.66698
 40
5.00000
 50
86.81239
 51
91.86197
  0
ARC
  8
3
 10
103.33969
 20
123.27246
 40
4.62000
 50
266.80600
 51
316.43875
  0
ARC
  8
3
 10
98.47116
 20
126.44687
 40
10.39000
 50
322.26550
 51
347.87665
  0
LINE
  8
3
 10
116.39368
 20
121.91163
 11
108.62898
 21
124.26489
  0
ARC
  8
3
 10
100.32574
 20
125.89652
 40
16.55500
 50
328.58710
 51
346.07150
  0
ARC
  8
3
 10
105.65655
 20
122.50056
 40
10.23500
 50
290.00571
 51
329.25772
  0
ARC
  8
3
 10
103.21740
 20
133.00441
 40
20.98000
 50
266.02936
 51
286.44910
  0
ARC
  8
3
 10
101.41653
 20
107.08600
 40
5.00000
 50
86.00851
 51
90.34175
  0
ARC
  8
3
 10
101.30704
 20
124.65868
 40
12.57250
 50
232.24680
 51
270.36304
  0
ARC
  8
3
 10
96.66883
 20
118.67221
 40
5.00000
 50
229.46494
 51
232.26901
  0
ARC
  8
3
 10
102.35252
 20
125.31006
 40
13.73750
 50
194.48918
 51
229.44150
  0
ARC
  8
3
 10
93.89178
 20
123.12363
 40
5.00000
 50
190.99396
 51
194.48878
  0
ARC
  8
3
 10
114.29639
 20
127.08827
 40
25.78500
 50
174.50299
 51
190.99530
  0
ARC
  8
3
 10
102.39757
 20
128.38649
 40
13.81750
 50
137.96278
 51
175.13496
  0
ARC
  8
3
 10
95.84674
 20
134.29024
 40
5.00000
 50
133.10091
 51
137.94276
  0
ARC
  8
3
 10
101.41599
 20
128.34868
 40
13.14250
 50
94.96698
 51
133.12976
  0
ARC
  8
3
 10
102.90538
 20
121.19215
 40
20.42000
 50
74.36871
 51
97.39240
  0
ARC
  8
3
 10
107.05991
 20
136.04243
 40
5.00000
 50
68.72510
 51
74.36337
  0
ARC
  8
3
 10
104.52365
 20
129.51958
 40
11.99750
 50
15.25325
 51
68.74113
  0
LINE
  8
3
 10
108.27607
 20
130.97058
 11
116.09956
 21
132.67624
  0
ARC
  8
3
 10
99.01788
 20
127.77928
 40
9.79250
 50
19.01907
 51
25.46417
  0
ARC
  8
3
 10
103.34528
 20
129.83966
 40
5.00000
 50
25.46795
 51
49.53781
  0
ARC
  8
3
 10
101.43619
 20
127.60008
 40
7.94250
 50
49.54407
 51
58.63605
  0
ARC
  8
3
 10
102.91349
 20
128.73013
 40
6.24500
 50
64.82483
 51
83.38571
  0
ARC
  8
3
 10
103.05689
 20
129.96729
 40
5.00000
 50
83.38510
 51
96.38629
  0
ARC
  8
3
 10
103.12113
 20
129.38936
 40
5.58250
 50
96.38174
 51
117.57567
  0
LINE
  8
3
 10
66.65094
 20
70.87260
 11
58.01865
 21
70.87260
  0
LINE
  8
3
 10
58.01865
 20
70.87260
 11
58.01865
 21
99.51957
  0
LINE
  8
3
 10
58.01865
 20
99.51957
 11
66.65094
 21
99.51957
  0
ARC
  8
3
 10
74.65616
 20
91.53577
 40
9.17000
 50
-16.88345
 51
9.85718
  0
ARC
  8
3
 10
76.24252
 20
91.22553
 40
7.56250
 50
308.58838
 51
341.87518
  0
ARC
  8
3
 10
75.47632
 20
92.23042
 40
8.82750
 50
279.28821
 51
308.40747
  0
ARC
  8
3
 10
75.19165
 20
77.01277
 40
6.72750
 50
26.82672
 51
75.28130
  0
ARC
  8
3
 10
44.31248
 20
54.00206
 40
45.15250
 50
21.93963
 51
35.23003
  0
LINE
  8
3
 10
86.19514
 20
70.87244
 11
76.19514
 21
70.87260
  0
LINE
  8
3
 10
76.19514
 20
70.87260
 11
71.07744
 21
80.22562
  0
ARC
  8
3
 10
67.38422
 20
78.54551
 40
4.05750
 50
24.46161
 51
59.71404
  0
ARC
  8
3
 10
67.22643
 20
77.23689
 40
5.29250
 50
65.39232
 51
82.67865
  0
LINE
  8
3
 10
67.90094
 20
82.48672
 11
67.90094
 21
87.93168
  0
LINE
  8
3
 10
67.90094
 20
87.93168
 11
71.25395
 21
87.93169
  0
ARC
  8
3
 10
69.27451
 20
102.08025
 40
14.28750
 50
277.96423
 51
285.33328
  0
ARC
  8
3
 10
72.65213
 20
90.34431
 40
2.08000
 50
281.08835
 51
330.31583
  0
ARC
  8
3
 10
72.16498
 20
90.90966
 40
2.79500
 50
325.18622
 51
359.24115
  0
ARC
  8
3
 10
71.66280
 20
90.74124
 40
3.30000
 50
2.28228
 51
39.01737
  0
ARC
  8
3
 10
73.44657
 20
92.19126
 40
1.00000
 50
38.81021
 51
66.40807
  0
ARC
  8
3
 10
71.57793
 20
88.65318
 40
5.00000
 50
63.00896
 51
81.10233
  0
ARC
  8
3
 10
70.02657
 20
78.74450
 40
15.03000
 50
81.10191
 51
87.11378
  0
LINE
  8
3
 10
70.78334
 20
93.75474
 11
67.90094
 21
93.75492
  0
LINE
  8
3
 10
67.90094
 20
93.75492
 11
67.90094
 21
99.51957
  0
LINE
  8
3
 10
67.90094
 20
99.51957
 11
72.72454
 21
99.51947
  0
ARC
  8
3
 10
73.27762
 20
76.51125
 40
23.01500
 50
75.70624
 51
91.37703
  0
ARC
  8
3
 10
76.54918
 20
91.92284
 40
7.30000
 50
35.54349
 51
70.71823
  0
ARC
  8
3
 10
75.63922
 20
91.71278
 40
8.17000
 50
9.81439
 51
33.03186
  0
LINE
  8
3
 10
.00000
 20
234.98975
 11
537.97144
 21
234.98975
  0
LINE
  8
3
 10
537.97144
 20
234.98975
 11
537.97144
 21
.00000
  0
LINE
  8
3
 10
537.97144
 20
.00000
 11
.00000
 21
.00000
  0
LINE
  8
3
 10
.00000
 20
.00000
 11
.00000
 21
234.98975
  0
LINE
  8
3
 10
40.73192
 20
123.37874
 11
40.70247
 21
117.20247
  0
LINE
  8
3
 10
39.20247
 20
117.20605
 11
39.23192
 21
123.38232
  0
LINE
  8
3
 10
43.09958
 20
123.38232
 11
40.73192
 21
123.37874
  0
LINE
  8
3
 10
40.70247
 20
117.20247
 11
44.98188
 21
117.20605
  0
LINE
  8
3
 10
68.95248
 20
141.14714
 11
75.04078
 21
141.14714
  0
LINE
  8
3
 10
74.86427
 20
112.50027
 11
68.95248
 21
112.50027
  0
LINE
  8
3
 10
68.95248
 20
135.32373
 11
68.95248
 21
141.14714
  0
LINE
  8
3
 10
68.95248
 20
124.44141
 11
68.95248
 21
129.91162
  0
LINE
  8
3
 10
68.95248
 20
112.50027
 11
68.95248
 21
118.67627
  0
LINE
  8
3
 10
131.07018
 20
141.14697
 11
131.07018
 21
134.67627
  0
LINE
  8
3
 10
131.15839
 20
119.02930
 11
131.15839
 21
112.50000
  0
LINE
  8
3
 10
131.15839
 20
112.50000
 11
134.80548
 21
112.50028
  0
LINE
  8
3
 10
133.86427
 20
141.14720
 11
131.07018
 21
141.14697
  0
LINE
  8
3
 10
131.07018
 20
134.67627
 11
131.74657
 21
134.67656
  0
LINE
  8
3
 10
132.74658
 20
119.02945
 11
131.15839
 21
119.02930
  0
LINE
  8
3
 10
491.33484
 20
135.32373
 11
491.33484
 21
141.14697
  0
LINE
  8
3
 10
491.33484
 20
123.11768
 11
491.33484
 21
128.91162
  0
LINE
  8
3
 10
491.33484
 20
141.14697
 11
495.53076
 21
141.15561
  0
LINE
  8
3
 10
37.30819
 20
99.64551
 11
37.30820
 21
92.88132
  0
LINE
  8
3
 10
38.80819
 20
99.65439
 11
38.80820
 21
92.86446
  0
LINE
  8
3
 10
37.30819
 20
76.73127
 11
37.30822
 21
70.06947
  0
LINE
  8
3
 10
38.80821
 20
76.70835
 11
38.80822
 21
70.07220
  0
ARC
  8
3
 10
37.88071
 20
81.78583
 40
17.87000
 50
91.83607
 51
113.47006
  0
ARC
  8
3
 10
38.30422
 20
85.36708
 40
7.58000
 50
97.55058
 51
107.70206
  0
ARC
  8
3
 10
38.01748
 20
92.44385
 40
22.38500
 50
272.02429
 51
289.12665
  0
ARC
  8
3
 10
38.20758
 20
86.52876
 40
9.84000
 50
273.49994
 51
279.44962
  0
LINE
  8
3
 10
461.90839
 20
134.81082
 11
461.90839
 21
141.61214
  0
LINE
  8
3
 10
460.40839
 20
134.90887
 11
460.40839
 21
141.63625
  0
LINE
  8
3
 10
461.90839
 20
112.09068
 11
461.90839
 21
118.69389
  0
LINE
  8
3
 10
460.40839
 20
112.09068
 11
460.40839
 21
118.65545
  0
LINE
  8
3
 10
66.65094
 20
99.51957
 11
66.65094
 21
70.87260
  0
LINE
  8
3
 10
327.81055
 20
41.21045
 11
327.81055
 21
47.38721
  0
LINE
  8
3
 10
381.42816
 20
40.35283
 11
381.42816
 21
35.40489
  0
LINE
  8
3
 10
379.92816
 20
35.41490
 11
379.92816
 21
40.34735
  0
ARC
  8
3
 10
380.49014
 20
56.02082
 40
20.63750
 50
272.60516
 51
285.06665
  0
ARC
  8
3
 10
433.14975
 20
46.11811
 40
18.83750
 50
92.28064
 51
104.83871
  0
LINE
  8
3
 10
433.90009
 20
64.93083
 11
433.90009
 21
60.08138
  0
LINE
  8
3
 10
432.40009
 20
60.05592
 11
432.40009
 21
64.94170
  0
ARC
  8
3
 10
433.17841
 20
57.06351
 40
3.09250
 50
104.57947
 51
145.85721
  0
LINE
  8
3
 10
433.90009
 20
53.61374
 11
433.90009
 21
48.83779
  0
LINE
  8
3
 10
432.40009
 20
48.76283
 11
432.40009
 21
53.70589
  0
ARC
  8
3
 10
433.52090
 20
44.88036
 40
4.04000
 50
106.10275
 51
125.94377
  0
LINE
  8
3
 10
432.40009
 20
35.40159
 11
432.40009
 21
40.40044
  0
LINE
  8
3
 10
433.90009
 20
40.25987
 11
433.90009
 21
35.38610
  0
ARC
  8
3
 10
433.22177
 20
61.28570
 40
25.90750
 50
271.50024
 51
276.87976
  0
LINE
  8
3
 10
460.16748
 20
64.91585
 11
460.16748
 21
59.93910
  0
LINE
  8
3
 10
458.66748
 20
59.94569
 11
458.66748
 21
64.95285
  0
ARC
  8
3
 10
459.02737
 20
49.08897
 40
15.86750
 50
91.29961
 51
103.71024
  0
ARC
  8
3
 10
459.41751
 20
56.80714
 40
3.22750
 50
103.44009
 51
112.01993
  0
LINE
  8
3
 10
329.31055
 20
57.20504
 11
329.31055
 21
35.85791
  0
LINE
  8
3
 10
487.48297
 20
64.97024
 11
487.48297
 21
59.55418
  0
LINE
  8
3
 10
485.98297
 20
59.56621
 11
485.98297
 21
64.93715
  0
ARC
  8
3
 10
487.07581
 20
49.39263
 40
15.58250
 50
78.84726
 51
88.50275
  0
ARC
  8
3
 10
486.91934
 20
55.95161
 40
3.73500
 50
104.52336
 51
115.27283
  0
ENDSEC
  0
EOF
